0
SECTION
2
HEADER
9
$INSUNITS
70
4
0
ENDSEC
0
SECTION
2
TABLES
0
TABLE
2
LTYPE
0
LTYPE
72
65
70
64
2
CONTINUOUS
3
______
73
0
40
0
0
ENDTAB
0
TABLE
2
LAYER
0
ENDTAB
0
ENDSEC
0
SECTION
2
ENTITIES
0
LINE
8
0
10
-9
20
9
11
9
21
9
0
LINE
8
0
10
9
20
9
11
9
21
-9
0
LINE
8
0
10
9
20
-9
11
-9
21
-9
0
LINE
8
0
10
-9
20
-9
11
-9
21
9
0
LINE
8
0
10
-9
20
28
11
9
21
28
0
LINE
8
0
10
9
20
28
11
9
21
10
0
LINE
8
0
10
9
20
10
11
-9
21
10
0
LINE
8
0
10
-9
20
10
11
-9
21
28
0
LINE
8
0
10
14.4311966
20
13.9315046
11
32.3627012
21
15.500308
0
LINE
8
0
10
32.3627012
20
15.500308
11
33.9315046
21
-2.4311966
0
LINE
8
0
10
33.9315046
20
-2.4311966
11
16
21
-4
0
LINE
8
0
10
16
20
-4
11
14.4311966
21
13.9315046
0
LINE
8
0
10
22.7371845
20
33.7307613
11
40.6686891
21
35.2995647
0
LINE
8
0
10
40.6686891
20
35.2995647
11
42.2374925
21
17.3680601
0
LINE
8
0
10
42.2374925
20
17.3680601
11
24.3059879
21
15.7992567
0
LINE
8
0
10
24.3059879
20
15.7992567
11
22.7371845
21
33.7307613
0
ENDSEC
0
EOF