0
SECTION
2
HEADER
9
$INSUNITS
70
4
0
ENDSEC
0
SECTION
2
TABLES
0
TABLE
2
LTYPE
0
LTYPE
72
65
70
64
2
CONTINUOUS
3
______
73
0
40
0
0
ENDTAB
0
TABLE
2
LAYER
0
ENDTAB
0
ENDSEC
0
SECTION
2
ENTITIES
0
LINE
8
0
10
-9
20
9
11
9
21
9
0
LINE
8
0
10
9
20
9
11
9
21
-9
0
LINE
8
0
10
9
20
-9
11
-9
21
-9
0
LINE
8
0
10
-9
20
-9
11
-9
21
9
0
LINE
8
0
10
-9
20
28
11
9
21
28
0
LINE
8
0
10
9
20
28
11
9
21
10
0
LINE
8
0
10
9
20
10
11
-9
21
10
0
LINE
8
0
10
-9
20
10
11
-9
21
28
0
LINE
8
0
10
10
20
9
11
28
21
9
0
LINE
8
0
10
28
20
9
11
28
21
-9
0
LINE
8
0
10
28
20
-9
11
10
21
-9
0
LINE
8
0
10
10
20
-9
11
10
21
9
0
LINE
8
0
10
10
20
28
11
28
21
28
0
LINE
8
0
10
28
20
28
11
28
21
10
0
LINE
8
0
10
28
20
10
11
10
21
10
0
LINE
8
0
10
10
20
10
11
10
21
28
0
LINE
8
0
10
10
20
47
11
28
21
47
0
LINE
8
0
10
28
20
47
11
28
21
29
0
LINE
8
0
10
28
20
29
11
10
21
29
0
LINE
8
0
10
10
20
29
11
10
21
47
0
LINE
8
0
10
29
20
28
11
47
21
28
0
LINE
8
0
10
47
20
28
11
47
21
10
0
LINE
8
0
10
47
20
10
11
29
21
10
0
LINE
8
0
10
29
20
10
11
29
21
28
0
LINE
8
0
10
29
20
47
11
47
21
47
0
LINE
8
0
10
47
20
47
11
47
21
29
0
LINE
8
0
10
47
20
29
11
29
21
29
0
LINE
8
0
10
29
20
29
11
29
21
47
0
ENDSEC
0
EOF