0
SECTION
2
HEADER
9
$INSUNITS
70
4
0
ENDSEC
0
SECTION
2
TABLES
0
TABLE
2
LTYPE
0
LTYPE
72
65
70
64
2
CONTINUOUS
3
______
73
0
40
0
0
ENDTAB
0
TABLE
2
LAYER
0
ENDTAB
0
ENDSEC
0
SECTION
2
ENTITIES
0
LINE
8
0
10
-7
20
-7
11
7
21
-7
0
LINE
8
0
10
7
20
-7
11
7
21
7
0
LINE
8
0
10
7
20
7
11
-7
21
7
0
LINE
8
0
10
-7
20
7
11
-7
21
-7
0
LINE
8
0
10
-7
20
12
11
7
21
12
0
LINE
8
0
10
7
20
12
11
7
21
26
0
LINE
8
0
10
7
20
26
11
-7
21
26
0
LINE
8
0
10
-7
20
26
11
-7
21
12
0
LINE
8
0
10
23
20
-7
11
37
21
-7
0
LINE
8
0
10
37
20
-7
11
37
21
7
0
LINE
8
0
10
37
20
7
11
23
21
7
0
LINE
8
0
10
23
20
7
11
23
21
-7
0
LINE
8
0
10
23
20
12
11
37
21
12
0
LINE
8
0
10
37
20
12
11
37
21
26
0
LINE
8
0
10
37
20
26
11
23
21
26
0
LINE
8
0
10
23
20
26
11
23
21
12
0
LINE
8
0
10
27
20
-5.1961524
11
32.1961524
21
-8.1961524
0
LINE
8
0
10
32.1961524
20
-8.1961524
11
35.1961524
21
-3
0
LINE
8
0
10
35.1961524
20
-3
11
30
21
0
0
LINE
8
0
10
30
20
0
11
27
21
-5.1961524
0
LINE
8
0
10
27
20
13.8038476
11
32.1961524
21
10.8038476
0
LINE
8
0
10
32.1961524
20
10.8038476
11
35.1961524
21
16
0
LINE
8
0
10
35.1961524
20
16
11
30
21
19
0
LINE
8
0
10
30
20
19
11
27
21
13.8038476
0
LINE
8
0
10
-2.1961524
20
-8.1961524
11
3
21
-5.1961524
0
LINE
8
0
10
3
20
-5.1961524
11
0
21
0
0
LINE
8
0
10
0
20
0
11
-5.1961524
21
-3
0
LINE
8
0
10
-5.1961524
20
-3
11
-2.1961524
21
-8.1961524
0
LINE
8
0
10
-2.1961524
20
10.8038476
11
3
21
13.8038476
0
LINE
8
0
10
3
20
13.8038476
11
0
21
19
0
LINE
8
0
10
0
20
19
11
-5.1961524
21
16
0
LINE
8
0
10
-5.1961524
20
16
11
-2.1961524
21
10.8038476
0
ENDSEC
0
EOF