0
SECTION
2
HEADER
9
$INSUNITS
70
4
0
ENDSEC
0
SECTION
2
TABLES
0
TABLE
2
LTYPE
0
LTYPE
72
65
70
64
2
CONTINUOUS
3
______
73
0
40
0
0
ENDTAB
0
TABLE
2
LAYER
0
ENDTAB
0
ENDSEC
0
SECTION
2
ENTITIES
0
LINE
8
0
10
-10
20
-10
11
5
21
-10
0
LINE
8
0
10
10
20
0
11
10
21
10
0
LINE
8
0
10
10
20
10
11
-7.5
21
10
0
LINE
8
0
10
-10
20
5
11
-10
21
-10
0
LINE
8
0
10
35
20
-10
11
50
21
-10
0
LINE
8
0
10
50
20
-10
11
50
21
5
0
LINE
8
0
10
47.5
20
10
11
30
21
10
0
LINE
8
0
10
30
20
10
11
30
21
0
0
LINE
8
0
10
0
20
-20
11
5
21
-10
0
LINE
8
0
10
10
20
0
11
20
21
20
0
LINE
8
0
10
20
20
20
11
30
21
0
0
LINE
8
0
10
35
20
-10
11
40
21
-20
0
LINE
8
0
10
40
20
-20
11
0
21
-20
0
LINE
8
0
10
-15
20
5
11
-10
21
15
0
LINE
8
0
10
-10
20
15
11
-7.5
21
10
0
LINE
8
0
10
-10
20
5
11
-15
21
5
0
LINE
8
0
10
55
20
5
11
50
21
15
0
LINE
8
0
10
50
20
15
11
47.5
21
10
0
LINE
8
0
10
50
20
5
11
55
21
5
0
ENDSEC
0
EOF